  0
SECTION
  2
BLOCKS
  0
ENDSEC
  0
SECTION
  2
ENTITIES
  0
LINE
  8
0
 10
7.8959
 20
-125.502
 11
15.7607
 21
-124.758
  0
LINE
  8
0
 10
15.7607
 20
-124.758
 11
23.5632
 21
-123.523
  0
LINE
  8
0
 10
23.5632
 20
-123.523
 11
31.2728
 21
-121.799
  0
LINE
  8
0
 10
31.2728
 20
-121.799
 11
38.8589
 21
-119.595
  0
LINE
  8
0
 10
38.8589
 20
-119.595
 11
46.2917
 21
-116.919
  0
LINE
  8
0
 10
46.2917
 20
-116.919
 11
53.5417
 21
-113.782
  0
LINE
  8
0
 10
53.5417
 20
-113.782
 11
60.5805
 21
-110.196
  0
LINE
  8
0
 10
60.5805
 20
-110.196
 11
67.3802
 21
-106.174
  0
LINE
  8
0
 10
67.3802
 20
-106.174
 11
73.914
 21
-101.734
  0
LINE
  8
0
 10
73.914
 20
-101.734
 11
80.1561
 21
-96.892
  0
LINE
  8
0
 10
80.1561
 20
-96.892
 11
86.0818
 21
-91.6678
  0
LINE
  8
0
 10
86.0818
 20
-91.6678
 11
91.6678
 21
-86.0818
  0
LINE
  8
0
 10
91.6678
 20
-86.0818
 11
96.892
 21
-80.1561
  0
LINE
  8
0
 10
96.892
 20
-80.1561
 11
101.734
 21
-73.914
  0
LINE
  8
0
 10
101.734
 20
-73.914
 11
106.174
 21
-67.3802
  0
LINE
  8
0
 10
106.174
 20
-67.3802
 11
110.196
 21
-60.5805
  0
LINE
  8
0
 10
110.196
 20
-60.5805
 11
113.782
 21
-53.5417
  0
LINE
  8
0
 10
113.782
 20
-53.5417
 11
116.919
 21
-46.2917
  0
LINE
  8
0
 10
116.919
 20
-46.2917
 11
119.595
 21
-38.8589
  0
LINE
  8
0
 10
119.595
 20
-38.8589
 11
121.799
 21
-31.2728
  0
LINE
  8
0
 10
121.799
 20
-31.2728
 11
123.523
 21
-23.5632
  0
LINE
  8
0
 10
123.523
 20
-23.5632
 11
124.758
 21
-15.7607
  0
LINE
  8
0
 10
124.758
 20
-15.7607
 11
125.502
 21
-7.8959
  0
LINE
  8
0
 10
125.502
 20
-7.8959
 11
125.75
 21
0
  0
LINE
  8
0
 10
125.75
 20
0
 11
125.502
 21
7.8959
  0
LINE
  8
0
 10
125.502
 20
7.8959
 11
124.758
 21
15.7607
  0
LINE
  8
0
 10
124.758
 20
15.7607
 11
123.523
 21
23.5632
  0
LINE
  8
0
 10
123.523
 20
23.5632
 11
121.799
 21
31.2728
  0
LINE
  8
0
 10
121.799
 20
31.2728
 11
119.595
 21
38.8589
  0
LINE
  8
0
 10
119.595
 20
38.8589
 11
116.919
 21
46.2917
  0
LINE
  8
0
 10
116.919
 20
46.2917
 11
113.782
 21
53.5417
  0
LINE
  8
0
 10
113.782
 20
53.5417
 11
110.196
 21
60.5805
  0
LINE
  8
0
 10
110.196
 20
60.5805
 11
106.174
 21
67.3802
  0
LINE
  8
0
 10
106.174
 20
67.3802
 11
101.734
 21
73.914
  0
LINE
  8
0
 10
101.734
 20
73.914
 11
96.892
 21
80.1561
  0
LINE
  8
0
 10
96.892
 20
80.1561
 11
91.6678
 21
86.0818
  0
LINE
  8
0
 10
91.6678
 20
86.0818
 11
86.0818
 21
91.6678
  0
LINE
  8
0
 10
86.0818
 20
91.6678
 11
80.1561
 21
96.892
  0
LINE
  8
0
 10
80.1561
 20
96.892
 11
73.914
 21
101.734
  0
LINE
  8
0
 10
73.914
 20
101.734
 11
67.3802
 21
106.174
  0
LINE
  8
0
 10
67.3802
 20
106.174
 11
60.5805
 21
110.196
  0
LINE
  8
0
 10
60.5805
 20
110.196
 11
53.5417
 21
113.782
  0
LINE
  8
0
 10
53.5417
 20
113.782
 11
46.2917
 21
116.919
  0
LINE
  8
0
 10
46.2917
 20
116.919
 11
38.8589
 21
119.595
  0
LINE
  8
0
 10
38.8589
 20
119.595
 11
31.2728
 21
121.799
  0
LINE
  8
0
 10
31.2728
 20
121.799
 11
23.5632
 21
123.523
  0
LINE
  8
0
 10
23.5632
 20
123.523
 11
15.7607
 21
124.758
  0
LINE
  8
0
 10
15.7607
 20
124.758
 11
7.8959
 21
125.502
  0
LINE
  8
0
 10
7.8959
 20
125.502
 11
0
 21
125.75
  0
LINE
  8
0
 10
0
 20
125.75
 11
-7.8959
 21
125.502
  0
LINE
  8
0
 10
-7.8959
 20
125.502
 11
-15.7607
 21
124.758
  0
LINE
  8
0
 10
-15.7607
 20
124.758
 11
-23.5632
 21
123.523
  0
LINE
  8
0
 10
-23.5632
 20
123.523
 11
-31.2728
 21
121.799
  0
LINE
  8
0
 10
-31.2728
 20
121.799
 11
-38.8589
 21
119.595
  0
LINE
  8
0
 10
-38.8589
 20
119.595
 11
-46.2917
 21
116.919
  0
LINE
  8
0
 10
-46.2917
 20
116.919
 11
-53.5417
 21
113.782
  0
LINE
  8
0
 10
-53.5417
 20
113.782
 11
-60.5805
 21
110.196
  0
LINE
  8
0
 10
-60.5805
 20
110.196
 11
-67.3802
 21
106.174
  0
LINE
  8
0
 10
-67.3802
 20
106.174
 11
-73.914
 21
101.734
  0
LINE
  8
0
 10
-73.914
 20
101.734
 11
-80.1561
 21
96.892
  0
LINE
  8
0
 10
-80.1561
 20
96.892
 11
-86.0818
 21
91.6678
  0
LINE
  8
0
 10
-86.0818
 20
91.6678
 11
-91.6678
 21
86.0818
  0
LINE
  8
0
 10
-91.6678
 20
86.0818
 11
-96.892
 21
80.1561
  0
LINE
  8
0
 10
-96.892
 20
80.1561
 11
-101.734
 21
73.914
  0
LINE
  8
0
 10
-101.734
 20
73.914
 11
-106.174
 21
67.3802
  0
LINE
  8
0
 10
-106.174
 20
67.3802
 11
-110.196
 21
60.5805
  0
LINE
  8
0
 10
-110.196
 20
60.5805
 11
-113.782
 21
53.5417
  0
LINE
  8
0
 10
-113.782
 20
53.5417
 11
-116.919
 21
46.2917
  0
LINE
  8
0
 10
-116.919
 20
46.2917
 11
-119.595
 21
38.8589
  0
LINE
  8
0
 10
-119.595
 20
38.8589
 11
-121.799
 21
31.2728
  0
LINE
  8
0
 10
-121.799
 20
31.2728
 11
-123.523
 21
23.5632
  0
LINE
  8
0
 10
-123.523
 20
23.5632
 11
-124.758
 21
15.7607
  0
LINE
  8
0
 10
-124.758
 20
15.7607
 11
-125.502
 21
7.8959
  0
LINE
  8
0
 10
-125.502
 20
7.8959
 11
-125.75
 21
0
  0
LINE
  8
0
 10
-125.75
 20
0
 11
-125.502
 21
-7.8959
  0
LINE
  8
0
 10
-125.502
 20
-7.8959
 11
-124.758
 21
-15.7607
  0
LINE
  8
0
 10
-124.758
 20
-15.7607
 11
-123.523
 21
-23.5632
  0
LINE
  8
0
 10
-123.523
 20
-23.5632
 11
-121.799
 21
-31.2728
  0
LINE
  8
0
 10
-121.799
 20
-31.2728
 11
-119.595
 21
-38.8589
  0
LINE
  8
0
 10
-119.595
 20
-38.8589
 11
-116.919
 21
-46.2917
  0
LINE
  8
0
 10
-116.919
 20
-46.2917
 11
-113.782
 21
-53.5417
  0
LINE
  8
0
 10
-113.782
 20
-53.5417
 11
-110.196
 21
-60.5805
  0
LINE
  8
0
 10
-110.196
 20
-60.5805
 11
-106.174
 21
-67.3802
  0
LINE
  8
0
 10
-106.174
 20
-67.3802
 11
-101.734
 21
-73.914
  0
LINE
  8
0
 10
-101.734
 20
-73.914
 11
-96.892
 21
-80.1561
  0
LINE
  8
0
 10
-96.892
 20
-80.1561
 11
-91.6678
 21
-86.0818
  0
LINE
  8
0
 10
-91.6678
 20
-86.0818
 11
-86.0818
 21
-91.6678
  0
LINE
  8
0
 10
-86.0818
 20
-91.6678
 11
-80.1561
 21
-96.892
  0
LINE
  8
0
 10
-80.1561
 20
-96.892
 11
-73.914
 21
-101.734
  0
LINE
  8
0
 10
-73.914
 20
-101.734
 11
-67.3802
 21
-106.174
  0
LINE
  8
0
 10
-67.3802
 20
-106.174
 11
-60.5805
 21
-110.196
  0
LINE
  8
0
 10
-60.5805
 20
-110.196
 11
-53.5417
 21
-113.782
  0
LINE
  8
0
 10
-53.5417
 20
-113.782
 11
-46.2917
 21
-116.919
  0
LINE
  8
0
 10
-46.2917
 20
-116.919
 11
-38.8589
 21
-119.595
  0
LINE
  8
0
 10
-38.8589
 20
-119.595
 11
-31.2728
 21
-121.799
  0
LINE
  8
0
 10
-31.2728
 20
-121.799
 11
-23.5632
 21
-123.523
  0
LINE
  8
0
 10
-23.5632
 20
-123.523
 11
-15.7607
 21
-124.758
  0
LINE
  8
0
 10
-15.7607
 20
-124.758
 11
-7.8959
 21
-125.502
  0
LINE
  8
0
 10
-7.8959
 20
-125.502
 11
0
 21
-125.75
  0
LINE
  8
0
 10
0
 20
-125.75
 11
7.8959
 21
-125.502
  0
LINE
  8
0
 10
-0.172668
 20
115.755
 11
-0.344666
 21
115.772
  0
LINE
  8
0
 10
-0.344666
 20
115.772
 11
-0.515289
 21
115.799
  0
LINE
  8
0
 10
-0.515289
 20
115.799
 11
-0.683884
 21
115.836
  0
LINE
  8
0
 10
-0.683884
 20
115.836
 11
-0.849792
 21
115.885
  0
LINE
  8
0
 10
-0.849792
 20
115.885
 11
-1.01233
 21
115.943
  0
LINE
  8
0
 10
-1.01233
 20
115.943
 11
-1.17088
 21
116.012
  0
LINE
  8
0
 10
-1.17088
 20
116.012
 11
-1.32481
 21
116.09
  0
LINE
  8
0
 10
-1.32481
 20
116.09
 11
-1.47351
 21
116.178
  0
LINE
  8
0
 10
-1.47351
 20
116.178
 11
-1.61641
 21
116.275
  0
LINE
  8
0
 10
-1.61641
 20
116.275
 11
-1.75291
 21
116.381
  0
LINE
  8
0
 10
-1.75291
 20
116.381
 11
-1.88249
 21
116.495
  0
LINE
  8
0
 10
-1.88249
 20
116.495
 11
-2.00465
 21
116.617
  0
LINE
  8
0
 10
-2.00465
 20
116.617
 11
-2.1189
 21
116.747
  0
LINE
  8
0
 10
-2.1189
 20
116.747
 11
-2.22479
 21
116.884
  0
LINE
  8
0
 10
-2.22479
 20
116.884
 11
-2.3219
 21
117.026
  0
LINE
  8
0
 10
-2.3219
 20
117.026
 11
-2.40984
 21
117.175
  0
LINE
  8
0
 10
-2.40984
 20
117.175
 11
-2.48827
 21
117.329
  0
LINE
  8
0
 10
-2.48827
 20
117.329
 11
-2.55688
 21
117.488
  0
LINE
  8
0
 10
-2.55688
 20
117.488
 11
-2.6154
 21
117.65
  0
LINE
  8
0
 10
-2.6154
 20
117.65
 11
-2.66359
 21
117.816
  0
LINE
  8
0
 10
-2.66359
 20
117.816
 11
-2.70128
 21
117.985
  0
LINE
  8
0
 10
-2.70128
 20
117.985
 11
-2.7283
 21
118.155
  0
LINE
  8
0
 10
-2.7283
 20
118.155
 11
-2.74457
 21
118.327
  0
LINE
  8
0
 10
-2.74457
 20
118.327
 11
-2.75
 21
118.5
  0
LINE
  8
0
 10
-2.75
 20
118.5
 11
-2.74457
 21
118.673
  0
LINE
  8
0
 10
-2.74457
 20
118.673
 11
-2.7283
 21
118.845
  0
LINE
  8
0
 10
-2.7283
 20
118.845
 11
-2.70128
 21
119.015
  0
LINE
  8
0
 10
-2.70128
 20
119.015
 11
-2.66359
 21
119.184
  0
LINE
  8
0
 10
-2.66359
 20
119.184
 11
-2.6154
 21
119.35
  0
LINE
  8
0
 10
-2.6154
 20
119.35
 11
-2.55688
 21
119.512
  0
LINE
  8
0
 10
-2.55688
 20
119.512
 11
-2.48827
 21
119.671
  0
LINE
  8
0
 10
-2.48827
 20
119.671
 11
-2.40984
 21
119.825
  0
LINE
  8
0
 10
-2.40984
 20
119.825
 11
-2.3219
 21
119.974
  0
LINE
  8
0
 10
-2.3219
 20
119.974
 11
-2.22479
 21
120.116
  0
LINE
  8
0
 10
-2.22479
 20
120.116
 11
-2.1189
 21
120.253
  0
LINE
  8
0
 10
-2.1189
 20
120.253
 11
-2.00465
 21
120.383
  0
LINE
  8
0
 10
-2.00465
 20
120.383
 11
-1.88249
 21
120.505
  0
LINE
  8
0
 10
-1.88249
 20
120.505
 11
-1.75291
 21
120.619
  0
LINE
  8
0
 10
-1.75291
 20
120.619
 11
-1.61641
 21
120.725
  0
LINE
  8
0
 10
-1.61641
 20
120.725
 11
-1.47351
 21
120.822
  0
LINE
  8
0
 10
-1.47351
 20
120.822
 11
-1.32481
 21
120.91
  0
LINE
  8
0
 10
-1.32481
 20
120.91
 11
-1.17088
 21
120.988
  0
LINE
  8
0
 10
-1.17088
 20
120.988
 11
-1.01233
 21
121.057
  0
LINE
  8
0
 10
-1.01233
 20
121.057
 11
-0.849792
 21
121.115
  0
LINE
  8
0
 10
-0.849792
 20
121.115
 11
-0.683884
 21
121.164
  0
LINE
  8
0
 10
-0.683884
 20
121.164
 11
-0.515289
 21
121.201
  0
LINE
  8
0
 10
-0.515289
 20
121.201
 11
-0.344666
 21
121.228
  0
LINE
  8
0
 10
-0.344666
 20
121.228
 11
-0.172668
 21
121.245
  0
LINE
  8
0
 10
-0.172668
 20
121.245
 11
0
 21
121.25
  0
LINE
  8
0
 10
0
 20
121.25
 11
0.172668
 21
121.245
  0
LINE
  8
0
 10
0.172668
 20
121.245
 11
0.344666
 21
121.228
  0
LINE
  8
0
 10
0.344666
 20
121.228
 11
0.515289
 21
121.201
  0
LINE
  8
0
 10
0.515289
 20
121.201
 11
0.683884
 21
121.164
  0
LINE
  8
0
 10
0.683884
 20
121.164
 11
0.849792
 21
121.115
  0
LINE
  8
0
 10
0.849792
 20
121.115
 11
1.01233
 21
121.057
  0
LINE
  8
0
 10
1.01233
 20
121.057
 11
1.17088
 21
120.988
  0
LINE
  8
0
 10
1.17088
 20
120.988
 11
1.32481
 21
120.91
  0
LINE
  8
0
 10
1.32481
 20
120.91
 11
1.47351
 21
120.822
  0
LINE
  8
0
 10
1.47351
 20
120.822
 11
1.61641
 21
120.725
  0
LINE
  8
0
 10
1.61641
 20
120.725
 11
1.75291
 21
120.619
  0
LINE
  8
0
 10
1.75291
 20
120.619
 11
1.88249
 21
120.505
  0
LINE
  8
0
 10
1.88249
 20
120.505
 11
2.00465
 21
120.383
  0
LINE
  8
0
 10
2.00465
 20
120.383
 11
2.1189
 21
120.253
  0
LINE
  8
0
 10
2.1189
 20
120.253
 11
2.22479
 21
120.116
  0
LINE
  8
0
 10
2.22479
 20
120.116
 11
2.3219
 21
119.974
  0
LINE
  8
0
 10
2.3219
 20
119.974
 11
2.40984
 21
119.825
  0
LINE
  8
0
 10
2.40984
 20
119.825
 11
2.48827
 21
119.671
  0
LINE
  8
0
 10
2.48827
 20
119.671
 11
2.55688
 21
119.512
  0
LINE
  8
0
 10
2.55688
 20
119.512
 11
2.6154
 21
119.35
  0
LINE
  8
0
 10
2.6154
 20
119.35
 11
2.66359
 21
119.184
  0
LINE
  8
0
 10
2.66359
 20
119.184
 11
2.70128
 21
119.015
  0
LINE
  8
0
 10
2.70128
 20
119.015
 11
2.7283
 21
118.845
  0
LINE
  8
0
 10
2.7283
 20
118.845
 11
2.74457
 21
118.673
  0
LINE
  8
0
 10
2.74457
 20
118.673
 11
2.75
 21
118.5
  0
LINE
  8
0
 10
2.75
 20
118.5
 11
2.74457
 21
118.327
  0
LINE
  8
0
 10
2.74457
 20
118.327
 11
2.7283
 21
118.155
  0
LINE
  8
0
 10
2.7283
 20
118.155
 11
2.70128
 21
117.985
  0
LINE
  8
0
 10
2.70128
 20
117.985
 11
2.66359
 21
117.816
  0
LINE
  8
0
 10
2.66359
 20
117.816
 11
2.6154
 21
117.65
  0
LINE
  8
0
 10
2.6154
 20
117.65
 11
2.55688
 21
117.488
  0
LINE
  8
0
 10
2.55688
 20
117.488
 11
2.48827
 21
117.329
  0
LINE
  8
0
 10
2.48827
 20
117.329
 11
2.40984
 21
117.175
  0
LINE
  8
0
 10
2.40984
 20
117.175
 11
2.3219
 21
117.026
  0
LINE
  8
0
 10
2.3219
 20
117.026
 11
2.22479
 21
116.884
  0
LINE
  8
0
 10
2.22479
 20
116.884
 11
2.1189
 21
116.747
  0
LINE
  8
0
 10
2.1189
 20
116.747
 11
2.00465
 21
116.617
  0
LINE
  8
0
 10
2.00465
 20
116.617
 11
1.88249
 21
116.495
  0
LINE
  8
0
 10
1.88249
 20
116.495
 11
1.75291
 21
116.381
  0
LINE
  8
0
 10
1.75291
 20
116.381
 11
1.61641
 21
116.275
  0
LINE
  8
0
 10
1.61641
 20
116.275
 11
1.47351
 21
116.178
  0
LINE
  8
0
 10
1.47351
 20
116.178
 11
1.32481
 21
116.09
  0
LINE
  8
0
 10
1.32481
 20
116.09
 11
1.17088
 21
116.012
  0
LINE
  8
0
 10
1.17088
 20
116.012
 11
1.01233
 21
115.943
  0
LINE
  8
0
 10
1.01233
 20
115.943
 11
0.849792
 21
115.885
  0
LINE
  8
0
 10
0.849792
 20
115.885
 11
0.683884
 21
115.836
  0
LINE
  8
0
 10
0.683884
 20
115.836
 11
0.515289
 21
115.799
  0
LINE
  8
0
 10
0.515289
 20
115.799
 11
0.344666
 21
115.772
  0
LINE
  8
0
 10
0.344666
 20
115.772
 11
0.172668
 21
115.755
  0
LINE
  8
0
 10
0.172668
 20
115.755
 11
0
 21
115.75
  0
LINE
  8
0
 10
0
 20
115.75
 11
-0.172668
 21
115.755
  0
LINE
  8
0
 10
-7.04823
 20
-112.029
 11
-14.0686
 21
-111.365
  0
LINE
  8
0
 10
-14.0686
 20
-111.365
 11
-21.0335
 21
-110.262
  0
LINE
  8
0
 10
-21.0335
 20
-110.262
 11
-27.9154
 21
-108.723
  0
LINE
  8
0
 10
-27.9154
 20
-108.723
 11
-34.6871
 21
-106.756
  0
LINE
  8
0
 10
-34.6871
 20
-106.756
 11
-41.322
 21
-104.367
  0
LINE
  8
0
 10
-41.322
 20
-104.367
 11
-47.7937
 21
-101.567
  0
LINE
  8
0
 10
-47.7937
 20
-101.567
 11
-54.0768
 21
-98.3654
  0
LINE
  8
0
 10
-54.0768
 20
-98.3654
 11
-60.1465
 21
-94.7758
  0
LINE
  8
0
 10
-60.1465
 20
-94.7758
 11
-65.9789
 21
-90.8121
  0
LINE
  8
0
 10
-65.9789
 20
-90.8121
 11
-71.5508
 21
-86.4901
  0
LINE
  8
0
 10
-71.5508
 20
-86.4901
 11
-76.8404
 21
-81.8267
  0
LINE
  8
0
 10
-76.8404
 20
-81.8267
 11
-81.8267
 21
-76.8404
  0
LINE
  8
0
 10
-81.8267
 20
-76.8404
 11
-86.4901
 21
-71.5508
  0
LINE
  8
0
 10
-86.4901
 20
-71.5508
 11
-90.8121
 21
-65.9789
  0
LINE
  8
0
 10
-90.8121
 20
-65.9789
 11
-94.7758
 21
-60.1465
  0
LINE
  8
0
 10
-94.7758
 20
-60.1465
 11
-98.3654
 21
-54.0768
  0
LINE
  8
0
 10
-98.3654
 20
-54.0768
 11
-101.567
 21
-47.7937
  0
LINE
  8
0
 10
-101.567
 20
-47.7937
 11
-104.367
 21
-41.322
  0
LINE
  8
0
 10
-104.367
 20
-41.322
 11
-106.756
 21
-34.6871
  0
LINE
  8
0
 10
-106.756
 20
-34.6871
 11
-108.723
 21
-27.9154
  0
LINE
  8
0
 10
-108.723
 20
-27.9154
 11
-110.262
 21
-21.0335
  0
LINE
  8
0
 10
-110.262
 20
-21.0335
 11
-111.365
 21
-14.0686
  0
LINE
  8
0
 10
-111.365
 20
-14.0686
 11
-112.029
 21
-7.04823
  0
LINE
  8
0
 10
-112.029
 20
-7.04823
 11
-112.25
 21
0
  0
LINE
  8
0
 10
-112.25
 20
0
 11
-112.029
 21
7.04823
  0
LINE
  8
0
 10
-112.029
 20
7.04823
 11
-111.365
 21
14.0686
  0
LINE
  8
0
 10
-111.365
 20
14.0686
 11
-110.262
 21
21.0335
  0
LINE
  8
0
 10
-110.262
 20
21.0335
 11
-108.723
 21
27.9154
  0
LINE
  8
0
 10
-108.723
 20
27.9154
 11
-106.756
 21
34.6871
  0
LINE
  8
0
 10
-106.756
 20
34.6871
 11
-104.367
 21
41.322
  0
LINE
  8
0
 10
-104.367
 20
41.322
 11
-101.567
 21
47.7937
  0
LINE
  8
0
 10
-101.567
 20
47.7937
 11
-98.3654
 21
54.0768
  0
LINE
  8
0
 10
-98.3654
 20
54.0768
 11
-94.7758
 21
60.1465
  0
LINE
  8
0
 10
-94.7758
 20
60.1465
 11
-90.8121
 21
65.9789
  0
LINE
  8
0
 10
-90.8121
 20
65.9789
 11
-86.4901
 21
71.5508
  0
LINE
  8
0
 10
-86.4901
 20
71.5508
 11
-81.8267
 21
76.8404
  0
LINE
  8
0
 10
-81.8267
 20
76.8404
 11
-76.8404
 21
81.8267
  0
LINE
  8
0
 10
-76.8404
 20
81.8267
 11
-71.5508
 21
86.4901
  0
LINE
  8
0
 10
-71.5508
 20
86.4901
 11
-65.9789
 21
90.8121
  0
LINE
  8
0
 10
-65.9789
 20
90.8121
 11
-60.1465
 21
94.7758
  0
LINE
  8
0
 10
-60.1465
 20
94.7758
 11
-54.0768
 21
98.3654
  0
LINE
  8
0
 10
-54.0768
 20
98.3654
 11
-47.7937
 21
101.567
  0
LINE
  8
0
 10
-47.7937
 20
101.567
 11
-41.322
 21
104.367
  0
LINE
  8
0
 10
-41.322
 20
104.367
 11
-34.6871
 21
106.756
  0
LINE
  8
0
 10
-34.6871
 20
106.756
 11
-27.9154
 21
108.723
  0
LINE
  8
0
 10
-27.9154
 20
108.723
 11
-21.0335
 21
110.262
  0
LINE
  8
0
 10
-21.0335
 20
110.262
 11
-14.0686
 21
111.365
  0
LINE
  8
0
 10
-14.0686
 20
111.365
 11
-7.04823
 21
112.029
  0
LINE
  8
0
 10
-7.04823
 20
112.029
 11
0
 21
112.25
  0
LINE
  8
0
 10
0
 20
112.25
 11
7.04823
 21
112.029
  0
LINE
  8
0
 10
7.04823
 20
112.029
 11
14.0686
 21
111.365
  0
LINE
  8
0
 10
14.0686
 20
111.365
 11
21.0335
 21
110.262
  0
LINE
  8
0
 10
21.0335
 20
110.262
 11
27.9154
 21
108.723
  0
LINE
  8
0
 10
27.9154
 20
108.723
 11
34.6871
 21
106.756
  0
LINE
  8
0
 10
34.6871
 20
106.756
 11
41.322
 21
104.367
  0
LINE
  8
0
 10
41.322
 20
104.367
 11
47.7937
 21
101.567
  0
LINE
  8
0
 10
47.7937
 20
101.567
 11
54.0768
 21
98.3654
  0
LINE
  8
0
 10
54.0768
 20
98.3654
 11
60.1465
 21
94.7758
  0
LINE
  8
0
 10
60.1465
 20
94.7758
 11
65.9789
 21
90.8121
  0
LINE
  8
0
 10
65.9789
 20
90.8121
 11
71.5508
 21
86.4901
  0
LINE
  8
0
 10
71.5508
 20
86.4901
 11
76.8404
 21
81.8267
  0
LINE
  8
0
 10
76.8404
 20
81.8267
 11
81.8267
 21
76.8404
  0
LINE
  8
0
 10
81.8267
 20
76.8404
 11
86.4901
 21
71.5508
  0
LINE
  8
0
 10
86.4901
 20
71.5508
 11
90.8121
 21
65.9789
  0
LINE
  8
0
 10
90.8121
 20
65.9789
 11
94.7758
 21
60.1465
  0
LINE
  8
0
 10
94.7758
 20
60.1465
 11
98.3654
 21
54.0768
  0
LINE
  8
0
 10
98.3654
 20
54.0768
 11
101.567
 21
47.7937
  0
LINE
  8
0
 10
101.567
 20
47.7937
 11
104.367
 21
41.322
  0
LINE
  8
0
 10
104.367
 20
41.322
 11
106.756
 21
34.6871
  0
LINE
  8
0
 10
106.756
 20
34.6871
 11
108.723
 21
27.9154
  0
LINE
  8
0
 10
108.723
 20
27.9154
 11
110.262
 21
21.0335
  0
LINE
  8
0
 10
110.262
 20
21.0335
 11
111.365
 21
14.0686
  0
LINE
  8
0
 10
111.365
 20
14.0686
 11
112.029
 21
7.04823
  0
LINE
  8
0
 10
112.029
 20
7.04823
 11
112.25
 21
0
  0
LINE
  8
0
 10
112.25
 20
0
 11
112.029
 21
-7.04823
  0
LINE
  8
0
 10
112.029
 20
-7.04823
 11
111.365
 21
-14.0686
  0
LINE
  8
0
 10
111.365
 20
-14.0686
 11
110.262
 21
-21.0335
  0
LINE
  8
0
 10
110.262
 20
-21.0335
 11
108.723
 21
-27.9154
  0
LINE
  8
0
 10
108.723
 20
-27.9154
 11
106.756
 21
-34.6871
  0
LINE
  8
0
 10
106.756
 20
-34.6871
 11
104.367
 21
-41.322
  0
LINE
  8
0
 10
104.367
 20
-41.322
 11
101.567
 21
-47.7937
  0
LINE
  8
0
 10
101.567
 20
-47.7937
 11
98.3654
 21
-54.0768
  0
LINE
  8
0
 10
98.3654
 20
-54.0768
 11
94.7758
 21
-60.1465
  0
LINE
  8
0
 10
94.7758
 20
-60.1465
 11
90.8121
 21
-65.9789
  0
LINE
  8
0
 10
90.8121
 20
-65.9789
 11
86.4901
 21
-71.5508
  0
LINE
  8
0
 10
86.4901
 20
-71.5508
 11
81.8267
 21
-76.8404
  0
LINE
  8
0
 10
81.8267
 20
-76.8404
 11
76.8404
 21
-81.8267
  0
LINE
  8
0
 10
76.8404
 20
-81.8267
 11
71.5508
 21
-86.4901
  0
LINE
  8
0
 10
71.5508
 20
-86.4901
 11
65.9789
 21
-90.8121
  0
LINE
  8
0
 10
65.9789
 20
-90.8121
 11
60.1465
 21
-94.7758
  0
LINE
  8
0
 10
60.1465
 20
-94.7758
 11
54.0768
 21
-98.3654
  0
LINE
  8
0
 10
54.0768
 20
-98.3654
 11
47.7937
 21
-101.567
  0
LINE
  8
0
 10
47.7937
 20
-101.567
 11
41.322
 21
-104.367
  0
LINE
  8
0
 10
41.322
 20
-104.367
 11
34.6871
 21
-106.756
  0
LINE
  8
0
 10
34.6871
 20
-106.756
 11
27.9154
 21
-108.723
  0
LINE
  8
0
 10
27.9154
 20
-108.723
 11
21.0335
 21
-110.262
  0
LINE
  8
0
 10
21.0335
 20
-110.262
 11
14.0686
 21
-111.365
  0
LINE
  8
0
 10
14.0686
 20
-111.365
 11
7.04823
 21
-112.029
  0
LINE
  8
0
 10
7.04823
 20
-112.029
 11
0
 21
-112.25
  0
LINE
  8
0
 10
0
 20
-112.25
 11
-7.04823
 21
-112.029
  0
LINE
  8
0
 10
-102.854
 20
56.5096
 11
-103.026
 21
56.5295
  0
LINE
  8
0
 10
-103.026
 20
56.5295
 11
-103.196
 21
56.5601
  0
LINE
  8
0
 10
-103.196
 20
56.5601
 11
-103.364
 21
56.6013
  0
LINE
  8
0
 10
-103.364
 20
56.6013
 11
-103.528
 21
56.653
  0
LINE
  8
0
 10
-103.528
 20
56.653
 11
-103.69
 21
56.7149
  0
LINE
  8
0
 10
-103.69
 20
56.7149
 11
-103.847
 21
56.7868
  0
LINE
  8
0
 10
-103.847
 20
56.7868
 11
-103.999
 21
56.8684
  0
LINE
  8
0
 10
-103.999
 20
56.8684
 11
-104.146
 21
56.9595
  0
LINE
  8
0
 10
-104.146
 20
56.9595
 11
-104.287
 21
57.0595
  0
LINE
  8
0
 10
-104.287
 20
57.0595
 11
-104.421
 21
57.1683
  0
LINE
  8
0
 10
-104.421
 20
57.1683
 11
-104.548
 21
57.2852
  0
LINE
  8
0
 10
-104.548
 20
57.2852
 11
-104.668
 21
57.4099
  0
LINE
  8
0
 10
-104.668
 20
57.4099
 11
-104.779
 21
57.5418
  0
LINE
  8
0
 10
-104.779
 20
57.5418
 11
-104.882
 21
57.6805
  0
LINE
  8
0
 10
-104.882
 20
57.6805
 11
-104.976
 21
57.8254
  0
LINE
  8
0
 10
-104.976
 20
57.8254
 11
-105.061
 21
57.9759
  0
LINE
  8
0
 10
-105.061
 20
57.9759
 11
-105.136
 21
58.1315
  0
LINE
  8
0
 10
-105.136
 20
58.1315
 11
-105.202
 21
58.2914
  0
LINE
  8
0
 10
-105.202
 20
58.2914
 11
-105.257
 21
58.4552
  0
LINE
  8
0
 10
-105.257
 20
58.4552
 11
-105.301
 21
58.622
  0
LINE
  8
0
 10
-105.301
 20
58.622
 11
-105.335
 21
58.7914
  0
LINE
  8
0
 10
-105.335
 20
58.7914
 11
-105.359
 21
58.9625
  0
LINE
  8
0
 10
-105.359
 20
58.9625
 11
-105.372
 21
59.1348
  0
LINE
  8
0
 10
-105.372
 20
59.1348
 11
-105.373
 21
59.3076
  0
LINE
  8
0
 10
-105.373
 20
59.3076
 11
-105.364
 21
59.4801
  0
LINE
  8
0
 10
-105.364
 20
59.4801
 11
-105.345
 21
59.6517
  0
LINE
  8
0
 10
-105.345
 20
59.6517
 11
-105.314
 21
59.8217
  0
LINE
  8
0
 10
-105.314
 20
59.8217
 11
-105.273
 21
59.9895
  0
LINE
  8
0
 10
-105.273
 20
59.9895
 11
-105.221
 21
60.1544
  0
LINE
  8
0
 10
-105.221
 20
60.1544
 11
-105.159
 21
60.3157
  0
LINE
  8
0
 10
-105.159
 20
60.3157
 11
-105.087
 21
60.4727
  0
LINE
  8
0
 10
-105.087
 20
60.4727
 11
-105.006
 21
60.625
  0
LINE
  8
0
 10
-105.006
 20
60.625
 11
-104.915
 21
60.7718
  0
LINE
  8
0
 10
-104.915
 20
60.7718
 11
-104.814
 21
60.9126
  0
LINE
  8
0
 10
-104.814
 20
60.9126
 11
-104.706
 21
61.0469
  0
LINE
  8
0
 10
-104.706
 20
61.0469
 11
-104.589
 21
61.1741
  0
LINE
  8
0
 10
-104.589
 20
61.1741
 11
-104.464
 21
61.2936
  0
LINE
  8
0
 10
-104.464
 20
61.2936
 11
-104.332
 21
61.4052
  0
LINE
  8
0
 10
-104.332
 20
61.4052
 11
-104.193
 21
61.5081
  0
LINE
  8
0
 10
-104.193
 20
61.5081
 11
-104.049
 21
61.6022
  0
LINE
  8
0
 10
-104.049
 20
61.6022
 11
-103.898
 21
61.6871
  0
LINE
  8
0
 10
-103.898
 20
61.6871
 11
-103.743
 21
61.7622
  0
LINE
  8
0
 10
-103.743
 20
61.7622
 11
-103.583
 21
61.8275
  0
LINE
  8
0
 10
-103.583
 20
61.8275
 11
-103.419
 21
61.8826
  0
LINE
  8
0
 10
-103.419
 20
61.8826
 11
-103.252
 21
61.9273
  0
LINE
  8
0
 10
-103.252
 20
61.9273
 11
-103.083
 21
61.9615
  0
LINE
  8
0
 10
-103.083
 20
61.9615
 11
-102.911
 21
61.9849
  0
LINE
  8
0
 10
-102.911
 20
61.9849
 11
-102.739
 21
61.9976
  0
LINE
  8
0
 10
-102.739
 20
61.9976
 11
-102.566
 21
61.9994
  0
LINE
  8
0
 10
-102.566
 20
61.9994
 11
-102.394
 21
61.9904
  0
LINE
  8
0
 10
-102.394
 20
61.9904
 11
-102.222
 21
61.9705
  0
LINE
  8
0
 10
-102.222
 20
61.9705
 11
-102.052
 21
61.9399
  0
LINE
  8
0
 10
-102.052
 20
61.9399
 11
-101.884
 21
61.8987
  0
LINE
  8
0
 10
-101.884
 20
61.8987
 11
-101.72
 21
61.847
  0
LINE
  8
0
 10
-101.72
 20
61.847
 11
-101.558
 21
61.7851
  0
LINE
  8
0
 10
-101.558
 20
61.7851
 11
-101.401
 21
61.7132
  0
LINE
  8
0
 10
-101.401
 20
61.7132
 11
-101.249
 21
61.6316
  0
LINE
  8
0
 10
-101.249
 20
61.6316
 11
-101.102
 21
61.5405
  0
LINE
  8
0
 10
-101.102
 20
61.5405
 11
-100.961
 21
61.4404
  0
LINE
  8
0
 10
-100.961
 20
61.4404
 11
-100.827
 21
61.3317
  0
LINE
  8
0
 10
-100.827
 20
61.3317
 11
-100.7
 21
61.2148
  0
LINE
  8
0
 10
-100.7
 20
61.2148
 11
-100.58
 21
61.0901
  0
LINE
  8
0
 10
-100.58
 20
61.0901
 11
-100.469
 21
60.9581
  0
LINE
  8
0
 10
-100.469
 20
60.9581
 11
-100.366
 21
60.8195
  0
LINE
  8
0
 10
-100.366
 20
60.8195
 11
-100.272
 21
60.6746
  0
LINE
  8
0
 10
-100.272
 20
60.6746
 11
-100.187
 21
60.5241
  0
LINE
  8
0
 10
-100.187
 20
60.5241
 11
-100.112
 21
60.3685
  0
LINE
  8
0
 10
-100.112
 20
60.3685
 11
-100.046
 21
60.2086
  0
LINE
  8
0
 10
-100.046
 20
60.2086
 11
-99.9914
 21
60.0448
  0
LINE
  8
0
 10
-99.9914
 20
60.0448
 11
-99.9467
 21
59.878
  0
LINE
  8
0
 10
-99.9467
 20
59.878
 11
-99.9125
 21
59.7086
  0
LINE
  8
0
 10
-99.9125
 20
59.7086
 11
-99.8891
 21
59.5374
  0
LINE
  8
0
 10
-99.8891
 20
59.5374
 11
-99.8764
 21
59.3652
  0
LINE
  8
0
 10
-99.8764
 20
59.3652
 11
-99.8746
 21
59.1924
  0
LINE
  8
0
 10
-99.8746
 20
59.1924
 11
-99.8837
 21
59.0199
  0
LINE
  8
0
 10
-99.8837
 20
59.0199
 11
-99.9035
 21
58.8483
  0
LINE
  8
0
 10
-99.9035
 20
58.8483
 11
-99.9341
 21
58.6782
  0
LINE
  8
0
 10
-99.9341
 20
58.6782
 11
-99.9753
 21
58.5105
  0
LINE
  8
0
 10
-99.9753
 20
58.5105
 11
-100.027
 21
58.3456
  0
LINE
  8
0
 10
-100.027
 20
58.3456
 11
-100.089
 21
58.1843
  0
LINE
  8
0
 10
-100.089
 20
58.1843
 11
-100.161
 21
58.0273
  0
LINE
  8
0
 10
-100.161
 20
58.0273
 11
-100.242
 21
57.875
  0
LINE
  8
0
 10
-100.242
 20
57.875
 11
-100.333
 21
57.7282
  0
LINE
  8
0
 10
-100.333
 20
57.7282
 11
-100.434
 21
57.5873
  0
LINE
  8
0
 10
-100.434
 20
57.5873
 11
-100.542
 21
57.4531
  0
LINE
  8
0
 10
-100.542
 20
57.4531
 11
-100.659
 21
57.3259
  0
LINE
  8
0
 10
-100.659
 20
57.3259
 11
-100.784
 21
57.2063
  0
LINE
  8
0
 10
-100.784
 20
57.2063
 11
-100.916
 21
57.0948
  0
LINE
  8
0
 10
-100.916
 20
57.0948
 11
-101.055
 21
56.9918
  0
LINE
  8
0
 10
-101.055
 20
56.9918
 11
-101.199
 21
56.8977
  0
LINE
  8
0
 10
-101.199
 20
56.8977
 11
-101.35
 21
56.8129
  0
LINE
  8
0
 10
-101.35
 20
56.8129
 11
-101.505
 21
56.7377
  0
LINE
  8
0
 10
-101.505
 20
56.7377
 11
-101.665
 21
56.6725
  0
LINE
  8
0
 10
-101.665
 20
56.6725
 11
-101.829
 21
56.6174
  0
LINE
  8
0
 10
-101.829
 20
56.6174
 11
-101.996
 21
56.5726
  0
LINE
  8
0
 10
-101.996
 20
56.5726
 11
-102.165
 21
56.5385
  0
LINE
  8
0
 10
-102.165
 20
56.5385
 11
-102.337
 21
56.5151
  0
LINE
  8
0
 10
-102.337
 20
56.5151
 11
-102.509
 21
56.5024
  0
LINE
  8
0
 10
-102.509
 20
56.5024
 11
-102.682
 21
56.5006
  0
LINE
  8
0
 10
-102.682
 20
56.5006
 11
-102.854
 21
56.5096
  0
LINE
  8
0
 10
102.509
 20
56.5024
 11
102.337
 21
56.5151
  0
LINE
  8
0
 10
102.337
 20
56.5151
 11
102.165
 21
56.5385
  0
LINE
  8
0
 10
102.165
 20
56.5385
 11
101.996
 21
56.5726
  0
LINE
  8
0
 10
101.996
 20
56.5726
 11
101.829
 21
56.6174
  0
LINE
  8
0
 10
101.829
 20
56.6174
 11
101.665
 21
56.6725
  0
LINE
  8
0
 10
101.665
 20
56.6725
 11
101.505
 21
56.7377
  0
LINE
  8
0
 10
101.505
 20
56.7377
 11
101.35
 21
56.8129
  0
LINE
  8
0
 10
101.35
 20
56.8129
 11
101.199
 21
56.8977
  0
LINE
  8
0
 10
101.199
 20
56.8977
 11
101.055
 21
56.9918
  0
LINE
  8
0
 10
101.055
 20
56.9918
 11
100.916
 21
57.0948
  0
LINE
  8
0
 10
100.916
 20
57.0948
 11
100.784
 21
57.2063
  0
LINE
  8
0
 10
100.784
 20
57.2063
 11
100.659
 21
57.3259
  0
LINE
  8
0
 10
100.659
 20
57.3259
 11
100.542
 21
57.4531
  0
LINE
  8
0
 10
100.542
 20
57.4531
 11
100.434
 21
57.5873
  0
LINE
  8
0
 10
100.434
 20
57.5873
 11
100.333
 21
57.7282
  0
LINE
  8
0
 10
100.333
 20
57.7282
 11
100.242
 21
57.875
  0
LINE
  8
0
 10
100.242
 20
57.875
 11
100.161
 21
58.0273
  0
LINE
  8
0
 10
100.161
 20
58.0273
 11
100.089
 21
58.1843
  0
LINE
  8
0
 10
100.089
 20
58.1843
 11
100.027
 21
58.3456
  0
LINE
  8
0
 10
100.027
 20
58.3456
 11
99.9753
 21
58.5105
  0
LINE
  8
0
 10
99.9753
 20
58.5105
 11
99.9341
 21
58.6782
  0
LINE
  8
0
 10
99.9341
 20
58.6782
 11
99.9035
 21
58.8483
  0
LINE
  8
0
 10
99.9035
 20
58.8483
 11
99.8837
 21
59.0199
  0
LINE
  8
0
 10
99.8837
 20
59.0199
 11
99.8746
 21
59.1924
  0
LINE
  8
0
 10
99.8746
 20
59.1924
 11
99.8764
 21
59.3652
  0
LINE
  8
0
 10
99.8764
 20
59.3652
 11
99.8891
 21
59.5374
  0
LINE
  8
0
 10
99.8891
 20
59.5374
 11
99.9125
 21
59.7086
  0
LINE
  8
0
 10
99.9125
 20
59.7086
 11
99.9467
 21
59.878
  0
LINE
  8
0
 10
99.9467
 20
59.878
 11
99.9914
 21
60.0448
  0
LINE
  8
0
 10
99.9914
 20
60.0448
 11
100.046
 21
60.2086
  0
LINE
  8
0
 10
100.046
 20
60.2086
 11
100.112
 21
60.3685
  0
LINE
  8
0
 10
100.112
 20
60.3685
 11
100.187
 21
60.5241
  0
LINE
  8
0
 10
100.187
 20
60.5241
 11
100.272
 21
60.6746
  0
LINE
  8
0
 10
100.272
 20
60.6746
 11
100.366
 21
60.8195
  0
LINE
  8
0
 10
100.366
 20
60.8195
 11
100.469
 21
60.9581
  0
LINE
  8
0
 10
100.469
 20
60.9581
 11
100.58
 21
61.0901
  0
LINE
  8
0
 10
100.58
 20
61.0901
 11
100.7
 21
61.2148
  0
LINE
  8
0
 10
100.7
 20
61.2148
 11
100.827
 21
61.3317
  0
LINE
  8
0
 10
100.827
 20
61.3317
 11
100.961
 21
61.4404
  0
LINE
  8
0
 10
100.961
 20
61.4404
 11
101.102
 21
61.5405
  0
LINE
  8
0
 10
101.102
 20
61.5405
 11
101.249
 21
61.6316
  0
LINE
  8
0
 10
101.249
 20
61.6316
 11
101.401
 21
61.7132
  0
LINE
  8
0
 10
101.401
 20
61.7132
 11
101.558
 21
61.7851
  0
LINE
  8
0
 10
101.558
 20
61.7851
 11
101.72
 21
61.847
  0
LINE
  8
0
 10
101.72
 20
61.847
 11
101.884
 21
61.8987
  0
LINE
  8
0
 10
101.884
 20
61.8987
 11
102.052
 21
61.9399
  0
LINE
  8
0
 10
102.052
 20
61.9399
 11
102.222
 21
61.9705
  0
LINE
  8
0
 10
102.222
 20
61.9705
 11
102.394
 21
61.9904
  0
LINE
  8
0
 10
102.394
 20
61.9904
 11
102.566
 21
61.9994
  0
LINE
  8
0
 10
102.566
 20
61.9994
 11
102.739
 21
61.9976
  0
LINE
  8
0
 10
102.739
 20
61.9976
 11
102.911
 21
61.9849
  0
LINE
  8
0
 10
102.911
 20
61.9849
 11
103.083
 21
61.9615
  0
LINE
  8
0
 10
103.083
 20
61.9615
 11
103.252
 21
61.9273
  0
LINE
  8
0
 10
103.252
 20
61.9273
 11
103.419
 21
61.8826
  0
LINE
  8
0
 10
103.419
 20
61.8826
 11
103.583
 21
61.8275
  0
LINE
  8
0
 10
103.583
 20
61.8275
 11
103.743
 21
61.7622
  0
LINE
  8
0
 10
103.743
 20
61.7622
 11
103.898
 21
61.6871
  0
LINE
  8
0
 10
103.898
 20
61.6871
 11
104.049
 21
61.6022
  0
LINE
  8
0
 10
104.049
 20
61.6022
 11
104.193
 21
61.5081
  0
LINE
  8
0
 10
104.193
 20
61.5081
 11
104.332
 21
61.4052
  0
LINE
  8
0
 10
104.332
 20
61.4052
 11
104.464
 21
61.2936
  0
LINE
  8
0
 10
104.464
 20
61.2936
 11
104.589
 21
61.1741
  0
LINE
  8
0
 10
104.589
 20
61.1741
 11
104.706
 21
61.0469
  0
LINE
  8
0
 10
104.706
 20
61.0469
 11
104.814
 21
60.9126
  0
LINE
  8
0
 10
104.814
 20
60.9126
 11
104.915
 21
60.7718
  0
LINE
  8
0
 10
104.915
 20
60.7718
 11
105.006
 21
60.625
  0
LINE
  8
0
 10
105.006
 20
60.625
 11
105.087
 21
60.4727
  0
LINE
  8
0
 10
105.087
 20
60.4727
 11
105.159
 21
60.3157
  0
LINE
  8
0
 10
105.159
 20
60.3157
 11
105.221
 21
60.1544
  0
LINE
  8
0
 10
105.221
 20
60.1544
 11
105.273
 21
59.9895
  0
LINE
  8
0
 10
105.273
 20
59.9895
 11
105.314
 21
59.8217
  0
LINE
  8
0
 10
105.314
 20
59.8217
 11
105.345
 21
59.6517
  0
LINE
  8
0
 10
105.345
 20
59.6517
 11
105.364
 21
59.4801
  0
LINE
  8
0
 10
105.364
 20
59.4801
 11
105.373
 21
59.3076
  0
LINE
  8
0
 10
105.373
 20
59.3076
 11
105.372
 21
59.1348
  0
LINE
  8
0
 10
105.372
 20
59.1348
 11
105.359
 21
58.9625
  0
LINE
  8
0
 10
105.359
 20
58.9625
 11
105.335
 21
58.7914
  0
LINE
  8
0
 10
105.335
 20
58.7914
 11
105.301
 21
58.622
  0
LINE
  8
0
 10
105.301
 20
58.622
 11
105.257
 21
58.4552
  0
LINE
  8
0
 10
105.257
 20
58.4552
 11
105.202
 21
58.2914
  0
LINE
  8
0
 10
105.202
 20
58.2914
 11
105.136
 21
58.1315
  0
LINE
  8
0
 10
105.136
 20
58.1315
 11
105.061
 21
57.9759
  0
LINE
  8
0
 10
105.061
 20
57.9759
 11
104.976
 21
57.8254
  0
LINE
  8
0
 10
104.976
 20
57.8254
 11
104.882
 21
57.6805
  0
LINE
  8
0
 10
104.882
 20
57.6805
 11
104.779
 21
57.5418
  0
LINE
  8
0
 10
104.779
 20
57.5418
 11
104.668
 21
57.4099
  0
LINE
  8
0
 10
104.668
 20
57.4099
 11
104.548
 21
57.2852
  0
LINE
  8
0
 10
104.548
 20
57.2852
 11
104.421
 21
57.1683
  0
LINE
  8
0
 10
104.421
 20
57.1683
 11
104.287
 21
57.0595
  0
LINE
  8
0
 10
104.287
 20
57.0595
 11
104.146
 21
56.9595
  0
LINE
  8
0
 10
104.146
 20
56.9595
 11
103.999
 21
56.8684
  0
LINE
  8
0
 10
103.999
 20
56.8684
 11
103.847
 21
56.7868
  0
LINE
  8
0
 10
103.847
 20
56.7868
 11
103.69
 21
56.7149
  0
LINE
  8
0
 10
103.69
 20
56.7149
 11
103.528
 21
56.653
  0
LINE
  8
0
 10
103.528
 20
56.653
 11
103.364
 21
56.6013
  0
LINE
  8
0
 10
103.364
 20
56.6013
 11
103.196
 21
56.5601
  0
LINE
  8
0
 10
103.196
 20
56.5601
 11
103.026
 21
56.5295
  0
LINE
  8
0
 10
103.026
 20
56.5295
 11
102.854
 21
56.5096
  0
LINE
  8
0
 10
102.854
 20
56.5096
 11
102.682
 21
56.5006
  0
LINE
  8
0
 10
102.682
 20
56.5006
 11
102.509
 21
56.5024
  0
LINE
  8
0
 10
-102.739
 20
-61.9976
 11
-102.911
 21
-61.9849
  0
LINE
  8
0
 10
-102.911
 20
-61.9849
 11
-103.083
 21
-61.9615
  0
LINE
  8
0
 10
-103.083
 20
-61.9615
 11
-103.252
 21
-61.9273
  0
LINE
  8
0
 10
-103.252
 20
-61.9273
 11
-103.419
 21
-61.8826
  0
LINE
  8
0
 10
-103.419
 20
-61.8826
 11
-103.583
 21
-61.8275
  0
LINE
  8
0
 10
-103.583
 20
-61.8275
 11
-103.743
 21
-61.7622
  0
LINE
  8
0
 10
-103.743
 20
-61.7622
 11
-103.898
 21
-61.6871
  0
LINE
  8
0
 10
-103.898
 20
-61.6871
 11
-104.049
 21
-61.6022
  0
LINE
  8
0
 10
-104.049
 20
-61.6022
 11
-104.193
 21
-61.5081
  0
LINE
  8
0
 10
-104.193
 20
-61.5081
 11
-104.332
 21
-61.4052
  0
LINE
  8
0
 10
-104.332
 20
-61.4052
 11
-104.464
 21
-61.2936
  0
LINE
  8
0
 10
-104.464
 20
-61.2936
 11
-104.589
 21
-61.1741
  0
LINE
  8
0
 10
-104.589
 20
-61.1741
 11
-104.706
 21
-61.0469
  0
LINE
  8
0
 10
-104.706
 20
-61.0469
 11
-104.814
 21
-60.9126
  0
LINE
  8
0
 10
-104.814
 20
-60.9126
 11
-104.915
 21
-60.7718
  0
LINE
  8
0
 10
-104.915
 20
-60.7718
 11
-105.006
 21
-60.625
  0
LINE
  8
0
 10
-105.006
 20
-60.625
 11
-105.087
 21
-60.4727
  0
LINE
  8
0
 10
-105.087
 20
-60.4727
 11
-105.159
 21
-60.3157
  0
LINE
  8
0
 10
-105.159
 20
-60.3157
 11
-105.221
 21
-60.1544
  0
LINE
  8
0
 10
-105.221
 20
-60.1544
 11
-105.273
 21
-59.9895
  0
LINE
  8
0
 10
-105.273
 20
-59.9895
 11
-105.314
 21
-59.8217
  0
LINE
  8
0
 10
-105.314
 20
-59.8217
 11
-105.345
 21
-59.6517
  0
LINE
  8
0
 10
-105.345
 20
-59.6517
 11
-105.364
 21
-59.4801
  0
LINE
  8
0
 10
-105.364
 20
-59.4801
 11
-105.373
 21
-59.3076
  0
LINE
  8
0
 10
-105.373
 20
-59.3076
 11
-105.372
 21
-59.1348
  0
LINE
  8
0
 10
-105.372
 20
-59.1348
 11
-105.359
 21
-58.9625
  0
LINE
  8
0
 10
-105.359
 20
-58.9625
 11
-105.335
 21
-58.7914
  0
LINE
  8
0
 10
-105.335
 20
-58.7914
 11
-105.301
 21
-58.622
  0
LINE
  8
0
 10
-105.301
 20
-58.622
 11
-105.257
 21
-58.4552
  0
LINE
  8
0
 10
-105.257
 20
-58.4552
 11
-105.202
 21
-58.2914
  0
LINE
  8
0
 10
-105.202
 20
-58.2914
 11
-105.136
 21
-58.1315
  0
LINE
  8
0
 10
-105.136
 20
-58.1315
 11
-105.061
 21
-57.9759
  0
LINE
  8
0
 10
-105.061
 20
-57.9759
 11
-104.976
 21
-57.8254
  0
LINE
  8
0
 10
-104.976
 20
-57.8254
 11
-104.882
 21
-57.6805
  0
LINE
  8
0
 10
-104.882
 20
-57.6805
 11
-104.779
 21
-57.5418
  0
LINE
  8
0
 10
-104.779
 20
-57.5418
 11
-104.668
 21
-57.4099
  0
LINE
  8
0
 10
-104.668
 20
-57.4099
 11
-104.548
 21
-57.2852
  0
LINE
  8
0
 10
-104.548
 20
-57.2852
 11
-104.421
 21
-57.1683
  0
LINE
  8
0
 10
-104.421
 20
-57.1683
 11
-104.287
 21
-57.0595
  0
LINE
  8
0
 10
-104.287
 20
-57.0595
 11
-104.146
 21
-56.9595
  0
LINE
  8
0
 10
-104.146
 20
-56.9595
 11
-103.999
 21
-56.8684
  0
LINE
  8
0
 10
-103.999
 20
-56.8684
 11
-103.847
 21
-56.7868
  0
LINE
  8
0
 10
-103.847
 20
-56.7868
 11
-103.69
 21
-56.7149
  0
LINE
  8
0
 10
-103.69
 20
-56.7149
 11
-103.528
 21
-56.653
  0
LINE
  8
0
 10
-103.528
 20
-56.653
 11
-103.364
 21
-56.6013
  0
LINE
  8
0
 10
-103.364
 20
-56.6013
 11
-103.196
 21
-56.5601
  0
LINE
  8
0
 10
-103.196
 20
-56.5601
 11
-103.026
 21
-56.5295
  0
LINE
  8
0
 10
-103.026
 20
-56.5295
 11
-102.854
 21
-56.5096
  0
LINE
  8
0
 10
-102.854
 20
-56.5096
 11
-102.682
 21
-56.5006
  0
LINE
  8
0
 10
-102.682
 20
-56.5006
 11
-102.509
 21
-56.5024
  0
LINE
  8
0
 10
-102.509
 20
-56.5024
 11
-102.337
 21
-56.5151
  0
LINE
  8
0
 10
-102.337
 20
-56.5151
 11
-102.165
 21
-56.5385
  0
LINE
  8
0
 10
-102.165
 20
-56.5385
 11
-101.996
 21
-56.5726
  0
LINE
  8
0
 10
-101.996
 20
-56.5726
 11
-101.829
 21
-56.6174
  0
LINE
  8
0
 10
-101.829
 20
-56.6174
 11
-101.665
 21
-56.6725
  0
LINE
  8
0
 10
-101.665
 20
-56.6725
 11
-101.505
 21
-56.7377
  0
LINE
  8
0
 10
-101.505
 20
-56.7377
 11
-101.35
 21
-56.8129
  0
LINE
  8
0
 10
-101.35
 20
-56.8129
 11
-101.199
 21
-56.8977
  0
LINE
  8
0
 10
-101.199
 20
-56.8977
 11
-101.055
 21
-56.9918
  0
LINE
  8
0
 10
-101.055
 20
-56.9918
 11
-100.916
 21
-57.0948
  0
LINE
  8
0
 10
-100.916
 20
-57.0948
 11
-100.784
 21
-57.2063
  0
LINE
  8
0
 10
-100.784
 20
-57.2063
 11
-100.659
 21
-57.3259
  0
LINE
  8
0
 10
-100.659
 20
-57.3259
 11
-100.542
 21
-57.4531
  0
LINE
  8
0
 10
-100.542
 20
-57.4531
 11
-100.434
 21
-57.5873
  0
LINE
  8
0
 10
-100.434
 20
-57.5873
 11
-100.333
 21
-57.7282
  0
LINE
  8
0
 10
-100.333
 20
-57.7282
 11
-100.242
 21
-57.875
  0
LINE
  8
0
 10
-100.242
 20
-57.875
 11
-100.161
 21
-58.0273
  0
LINE
  8
0
 10
-100.161
 20
-58.0273
 11
-100.089
 21
-58.1843
  0
LINE
  8
0
 10
-100.089
 20
-58.1843
 11
-100.027
 21
-58.3456
  0
LINE
  8
0
 10
-100.027
 20
-58.3456
 11
-99.9753
 21
-58.5105
  0
LINE
  8
0
 10
-99.9753
 20
-58.5105
 11
-99.9341
 21
-58.6782
  0
LINE
  8
0
 10
-99.9341
 20
-58.6782
 11
-99.9035
 21
-58.8483
  0
LINE
  8
0
 10
-99.9035
 20
-58.8483
 11
-99.8837
 21
-59.0199
  0
LINE
  8
0
 10
-99.8837
 20
-59.0199
 11
-99.8746
 21
-59.1924
  0
LINE
  8
0
 10
-99.8746
 20
-59.1924
 11
-99.8764
 21
-59.3652
  0
LINE
  8
0
 10
-99.8764
 20
-59.3652
 11
-99.8891
 21
-59.5374
  0
LINE
  8
0
 10
-99.8891
 20
-59.5374
 11
-99.9125
 21
-59.7086
  0
LINE
  8
0
 10
-99.9125
 20
-59.7086
 11
-99.9467
 21
-59.878
  0
LINE
  8
0
 10
-99.9467
 20
-59.878
 11
-99.9914
 21
-60.0448
  0
LINE
  8
0
 10
-99.9914
 20
-60.0448
 11
-100.046
 21
-60.2086
  0
LINE
  8
0
 10
-100.046
 20
-60.2086
 11
-100.112
 21
-60.3685
  0
LINE
  8
0
 10
-100.112
 20
-60.3685
 11
-100.187
 21
-60.5241
  0
LINE
  8
0
 10
-100.187
 20
-60.5241
 11
-100.272
 21
-60.6746
  0
LINE
  8
0
 10
-100.272
 20
-60.6746
 11
-100.366
 21
-60.8195
  0
LINE
  8
0
 10
-100.366
 20
-60.8195
 11
-100.469
 21
-60.9581
  0
LINE
  8
0
 10
-100.469
 20
-60.9581
 11
-100.58
 21
-61.0901
  0
LINE
  8
0
 10
-100.58
 20
-61.0901
 11
-100.7
 21
-61.2148
  0
LINE
  8
0
 10
-100.7
 20
-61.2148
 11
-100.827
 21
-61.3317
  0
LINE
  8
0
 10
-100.827
 20
-61.3317
 11
-100.961
 21
-61.4404
  0
LINE
  8
0
 10
-100.961
 20
-61.4404
 11
-101.102
 21
-61.5405
  0
LINE
  8
0
 10
-101.102
 20
-61.5405
 11
-101.249
 21
-61.6316
  0
LINE
  8
0
 10
-101.249
 20
-61.6316
 11
-101.401
 21
-61.7132
  0
LINE
  8
0
 10
-101.401
 20
-61.7132
 11
-101.558
 21
-61.7851
  0
LINE
  8
0
 10
-101.558
 20
-61.7851
 11
-101.72
 21
-61.847
  0
LINE
  8
0
 10
-101.72
 20
-61.847
 11
-101.884
 21
-61.8987
  0
LINE
  8
0
 10
-101.884
 20
-61.8987
 11
-102.052
 21
-61.9399
  0
LINE
  8
0
 10
-102.052
 20
-61.9399
 11
-102.222
 21
-61.9705
  0
LINE
  8
0
 10
-102.222
 20
-61.9705
 11
-102.394
 21
-61.9904
  0
LINE
  8
0
 10
-102.394
 20
-61.9904
 11
-102.566
 21
-61.9994
  0
LINE
  8
0
 10
-102.566
 20
-61.9994
 11
-102.739
 21
-61.9976
  0
LINE
  8
0
 10
102.394
 20
-61.9904
 11
102.222
 21
-61.9705
  0
LINE
  8
0
 10
102.222
 20
-61.9705
 11
102.052
 21
-61.9399
  0
LINE
  8
0
 10
102.052
 20
-61.9399
 11
101.884
 21
-61.8987
  0
LINE
  8
0
 10
101.884
 20
-61.8987
 11
101.72
 21
-61.847
  0
LINE
  8
0
 10
101.72
 20
-61.847
 11
101.558
 21
-61.7851
  0
LINE
  8
0
 10
101.558
 20
-61.7851
 11
101.401
 21
-61.7132
  0
LINE
  8
0
 10
101.401
 20
-61.7132
 11
101.249
 21
-61.6316
  0
LINE
  8
0
 10
101.249
 20
-61.6316
 11
101.102
 21
-61.5405
  0
LINE
  8
0
 10
101.102
 20
-61.5405
 11
100.961
 21
-61.4404
  0
LINE
  8
0
 10
100.961
 20
-61.4404
 11
100.827
 21
-61.3317
  0
LINE
  8
0
 10
100.827
 20
-61.3317
 11
100.7
 21
-61.2148
  0
LINE
  8
0
 10
100.7
 20
-61.2148
 11
100.58
 21
-61.0901
  0
LINE
  8
0
 10
100.58
 20
-61.0901
 11
100.469
 21
-60.9581
  0
LINE
  8
0
 10
100.469
 20
-60.9581
 11
100.366
 21
-60.8195
  0
LINE
  8
0
 10
100.366
 20
-60.8195
 11
100.272
 21
-60.6746
  0
LINE
  8
0
 10
100.272
 20
-60.6746
 11
100.187
 21
-60.5241
  0
LINE
  8
0
 10
100.187
 20
-60.5241
 11
100.112
 21
-60.3685
  0
LINE
  8
0
 10
100.112
 20
-60.3685
 11
100.046
 21
-60.2086
  0
LINE
  8
0
 10
100.046
 20
-60.2086
 11
99.9914
 21
-60.0448
  0
LINE
  8
0
 10
99.9914
 20
-60.0448
 11
99.9467
 21
-59.878
  0
LINE
  8
0
 10
99.9467
 20
-59.878
 11
99.9125
 21
-59.7086
  0
LINE
  8
0
 10
99.9125
 20
-59.7086
 11
99.8891
 21
-59.5374
  0
LINE
  8
0
 10
99.8891
 20
-59.5374
 11
99.8764
 21
-59.3652
  0
LINE
  8
0
 10
99.8764
 20
-59.3652
 11
99.8746
 21
-59.1924
  0
LINE
  8
0
 10
99.8746
 20
-59.1924
 11
99.8837
 21
-59.0199
  0
LINE
  8
0
 10
99.8837
 20
-59.0199
 11
99.9035
 21
-58.8483
  0
LINE
  8
0
 10
99.9035
 20
-58.8483
 11
99.9341
 21
-58.6782
  0
LINE
  8
0
 10
99.9341
 20
-58.6782
 11
99.9753
 21
-58.5105
  0
LINE
  8
0
 10
99.9753
 20
-58.5105
 11
100.027
 21
-58.3456
  0
LINE
  8
0
 10
100.027
 20
-58.3456
 11
100.089
 21
-58.1843
  0
LINE
  8
0
 10
100.089
 20
-58.1843
 11
100.161
 21
-58.0273
  0
LINE
  8
0
 10
100.161
 20
-58.0273
 11
100.242
 21
-57.875
  0
LINE
  8
0
 10
100.242
 20
-57.875
 11
100.333
 21
-57.7282
  0
LINE
  8
0
 10
100.333
 20
-57.7282
 11
100.434
 21
-57.5873
  0
LINE
  8
0
 10
100.434
 20
-57.5873
 11
100.542
 21
-57.4531
  0
LINE
  8
0
 10
100.542
 20
-57.4531
 11
100.659
 21
-57.3259
  0
LINE
  8
0
 10
100.659
 20
-57.3259
 11
100.784
 21
-57.2063
  0
LINE
  8
0
 10
100.784
 20
-57.2063
 11
100.916
 21
-57.0948
  0
LINE
  8
0
 10
100.916
 20
-57.0948
 11
101.055
 21
-56.9918
  0
LINE
  8
0
 10
101.055
 20
-56.9918
 11
101.199
 21
-56.8977
  0
LINE
  8
0
 10
101.199
 20
-56.8977
 11
101.35
 21
-56.8129
  0
LINE
  8
0
 10
101.35
 20
-56.8129
 11
101.505
 21
-56.7377
  0
LINE
  8
0
 10
101.505
 20
-56.7377
 11
101.665
 21
-56.6725
  0
LINE
  8
0
 10
101.665
 20
-56.6725
 11
101.829
 21
-56.6174
  0
LINE
  8
0
 10
101.829
 20
-56.6174
 11
101.996
 21
-56.5726
  0
LINE
  8
0
 10
101.996
 20
-56.5726
 11
102.165
 21
-56.5385
  0
LINE
  8
0
 10
102.165
 20
-56.5385
 11
102.337
 21
-56.5151
  0
LINE
  8
0
 10
102.337
 20
-56.5151
 11
102.509
 21
-56.5024
  0
LINE
  8
0
 10
102.509
 20
-56.5024
 11
102.682
 21
-56.5006
  0
LINE
  8
0
 10
102.682
 20
-56.5006
 11
102.854
 21
-56.5096
  0
LINE
  8
0
 10
102.854
 20
-56.5096
 11
103.026
 21
-56.5295
  0
LINE
  8
0
 10
103.026
 20
-56.5295
 11
103.196
 21
-56.5601
  0
LINE
  8
0
 10
103.196
 20
-56.5601
 11
103.364
 21
-56.6013
  0
LINE
  8
0
 10
103.364
 20
-56.6013
 11
103.528
 21
-56.653
  0
LINE
  8
0
 10
103.528
 20
-56.653
 11
103.69
 21
-56.7149
  0
LINE
  8
0
 10
103.69
 20
-56.7149
 11
103.847
 21
-56.7868
  0
LINE
  8
0
 10
103.847
 20
-56.7868
 11
103.999
 21
-56.8684
  0
LINE
  8
0
 10
103.999
 20
-56.8684
 11
104.146
 21
-56.9595
  0
LINE
  8
0
 10
104.146
 20
-56.9595
 11
104.287
 21
-57.0595
  0
LINE
  8
0
 10
104.287
 20
-57.0595
 11
104.421
 21
-57.1683
  0
LINE
  8
0
 10
104.421
 20
-57.1683
 11
104.548
 21
-57.2852
  0
LINE
  8
0
 10
104.548
 20
-57.2852
 11
104.668
 21
-57.4099
  0
LINE
  8
0
 10
104.668
 20
-57.4099
 11
104.779
 21
-57.5418
  0
LINE
  8
0
 10
104.779
 20
-57.5418
 11
104.882
 21
-57.6805
  0
LINE
  8
0
 10
104.882
 20
-57.6805
 11
104.976
 21
-57.8254
  0
LINE
  8
0
 10
104.976
 20
-57.8254
 11
105.061
 21
-57.9759
  0
LINE
  8
0
 10
105.061
 20
-57.9759
 11
105.136
 21
-58.1315
  0
LINE
  8
0
 10
105.136
 20
-58.1315
 11
105.202
 21
-58.2914
  0
LINE
  8
0
 10
105.202
 20
-58.2914
 11
105.257
 21
-58.4552
  0
LINE
  8
0
 10
105.257
 20
-58.4552
 11
105.301
 21
-58.622
  0
LINE
  8
0
 10
105.301
 20
-58.622
 11
105.335
 21
-58.7914
  0
LINE
  8
0
 10
105.335
 20
-58.7914
 11
105.359
 21
-58.9625
  0
LINE
  8
0
 10
105.359
 20
-58.9625
 11
105.372
 21
-59.1348
  0
LINE
  8
0
 10
105.372
 20
-59.1348
 11
105.373
 21
-59.3076
  0
LINE
  8
0
 10
105.373
 20
-59.3076
 11
105.364
 21
-59.4801
  0
LINE
  8
0
 10
105.364
 20
-59.4801
 11
105.345
 21
-59.6517
  0
LINE
  8
0
 10
105.345
 20
-59.6517
 11
105.314
 21
-59.8217
  0
LINE
  8
0
 10
105.314
 20
-59.8217
 11
105.273
 21
-59.9895
  0
LINE
  8
0
 10
105.273
 20
-59.9895
 11
105.221
 21
-60.1544
  0
LINE
  8
0
 10
105.221
 20
-60.1544
 11
105.159
 21
-60.3157
  0
LINE
  8
0
 10
105.159
 20
-60.3157
 11
105.087
 21
-60.4727
  0
LINE
  8
0
 10
105.087
 20
-60.4727
 11
105.006
 21
-60.625
  0
LINE
  8
0
 10
105.006
 20
-60.625
 11
104.915
 21
-60.7718
  0
LINE
  8
0
 10
104.915
 20
-60.7718
 11
104.814
 21
-60.9126
  0
LINE
  8
0
 10
104.814
 20
-60.9126
 11
104.706
 21
-61.0469
  0
LINE
  8
0
 10
104.706
 20
-61.0469
 11
104.589
 21
-61.1741
  0
LINE
  8
0
 10
104.589
 20
-61.1741
 11
104.464
 21
-61.2936
  0
LINE
  8
0
 10
104.464
 20
-61.2936
 11
104.332
 21
-61.4052
  0
LINE
  8
0
 10
104.332
 20
-61.4052
 11
104.193
 21
-61.5081
  0
LINE
  8
0
 10
104.193
 20
-61.5081
 11
104.049
 21
-61.6022
  0
LINE
  8
0
 10
104.049
 20
-61.6022
 11
103.898
 21
-61.6871
  0
LINE
  8
0
 10
103.898
 20
-61.6871
 11
103.743
 21
-61.7622
  0
LINE
  8
0
 10
103.743
 20
-61.7622
 11
103.583
 21
-61.8275
  0
LINE
  8
0
 10
103.583
 20
-61.8275
 11
103.419
 21
-61.8826
  0
LINE
  8
0
 10
103.419
 20
-61.8826
 11
103.252
 21
-61.9273
  0
LINE
  8
0
 10
103.252
 20
-61.9273
 11
103.083
 21
-61.9615
  0
LINE
  8
0
 10
103.083
 20
-61.9615
 11
102.911
 21
-61.9849
  0
LINE
  8
0
 10
102.911
 20
-61.9849
 11
102.739
 21
-61.9976
  0
LINE
  8
0
 10
102.739
 20
-61.9976
 11
102.566
 21
-61.9994
  0
LINE
  8
0
 10
102.566
 20
-61.9994
 11
102.394
 21
-61.9904
  0
LINE
  8
0
 10
-0.172668
 20
-121.245
 11
-0.344666
 21
-121.228
  0
LINE
  8
0
 10
-0.344666
 20
-121.228
 11
-0.515289
 21
-121.201
  0
LINE
  8
0
 10
-0.515289
 20
-121.201
 11
-0.683884
 21
-121.164
  0
LINE
  8
0
 10
-0.683884
 20
-121.164
 11
-0.849792
 21
-121.115
  0
LINE
  8
0
 10
-0.849792
 20
-121.115
 11
-1.01233
 21
-121.057
  0
LINE
  8
0
 10
-1.01233
 20
-121.057
 11
-1.17088
 21
-120.988
  0
LINE
  8
0
 10
-1.17088
 20
-120.988
 11
-1.32481
 21
-120.91
  0
LINE
  8
0
 10
-1.32481
 20
-120.91
 11
-1.47351
 21
-120.822
  0
LINE
  8
0
 10
-1.47351
 20
-120.822
 11
-1.61641
 21
-120.725
  0
LINE
  8
0
 10
-1.61641
 20
-120.725
 11
-1.75291
 21
-120.619
  0
LINE
  8
0
 10
-1.75291
 20
-120.619
 11
-1.88249
 21
-120.505
  0
LINE
  8
0
 10
-1.88249
 20
-120.505
 11
-2.00465
 21
-120.383
  0
LINE
  8
0
 10
-2.00465
 20
-120.383
 11
-2.1189
 21
-120.253
  0
LINE
  8
0
 10
-2.1189
 20
-120.253
 11
-2.22479
 21
-120.116
  0
LINE
  8
0
 10
-2.22479
 20
-120.116
 11
-2.3219
 21
-119.974
  0
LINE
  8
0
 10
-2.3219
 20
-119.974
 11
-2.40984
 21
-119.825
  0
LINE
  8
0
 10
-2.40984
 20
-119.825
 11
-2.48827
 21
-119.671
  0
LINE
  8
0
 10
-2.48827
 20
-119.671
 11
-2.55688
 21
-119.512
  0
LINE
  8
0
 10
-2.55688
 20
-119.512
 11
-2.6154
 21
-119.35
  0
LINE
  8
0
 10
-2.6154
 20
-119.35
 11
-2.66359
 21
-119.184
  0
LINE
  8
0
 10
-2.66359
 20
-119.184
 11
-2.70128
 21
-119.015
  0
LINE
  8
0
 10
-2.70128
 20
-119.015
 11
-2.7283
 21
-118.845
  0
LINE
  8
0
 10
-2.7283
 20
-118.845
 11
-2.74457
 21
-118.673
  0
LINE
  8
0
 10
-2.74457
 20
-118.673
 11
-2.75
 21
-118.5
  0
LINE
  8
0
 10
-2.75
 20
-118.5
 11
-2.74457
 21
-118.327
  0
LINE
  8
0
 10
-2.74457
 20
-118.327
 11
-2.7283
 21
-118.155
  0
LINE
  8
0
 10
-2.7283
 20
-118.155
 11
-2.70128
 21
-117.985
  0
LINE
  8
0
 10
-2.70128
 20
-117.985
 11
-2.66359
 21
-117.816
  0
LINE
  8
0
 10
-2.66359
 20
-117.816
 11
-2.6154
 21
-117.65
  0
LINE
  8
0
 10
-2.6154
 20
-117.65
 11
-2.55688
 21
-117.488
  0
LINE
  8
0
 10
-2.55688
 20
-117.488
 11
-2.48827
 21
-117.329
  0
LINE
  8
0
 10
-2.48827
 20
-117.329
 11
-2.40984
 21
-117.175
  0
LINE
  8
0
 10
-2.40984
 20
-117.175
 11
-2.3219
 21
-117.026
  0
LINE
  8
0
 10
-2.3219
 20
-117.026
 11
-2.22479
 21
-116.884
  0
LINE
  8
0
 10
-2.22479
 20
-116.884
 11
-2.1189
 21
-116.747
  0
LINE
  8
0
 10
-2.1189
 20
-116.747
 11
-2.00465
 21
-116.617
  0
LINE
  8
0
 10
-2.00465
 20
-116.617
 11
-1.88249
 21
-116.495
  0
LINE
  8
0
 10
-1.88249
 20
-116.495
 11
-1.75291
 21
-116.381
  0
LINE
  8
0
 10
-1.75291
 20
-116.381
 11
-1.61641
 21
-116.275
  0
LINE
  8
0
 10
-1.61641
 20
-116.275
 11
-1.47351
 21
-116.178
  0
LINE
  8
0
 10
-1.47351
 20
-116.178
 11
-1.32481
 21
-116.09
  0
LINE
  8
0
 10
-1.32481
 20
-116.09
 11
-1.17088
 21
-116.012
  0
LINE
  8
0
 10
-1.17088
 20
-116.012
 11
-1.01233
 21
-115.943
  0
LINE
  8
0
 10
-1.01233
 20
-115.943
 11
-0.849792
 21
-115.885
  0
LINE
  8
0
 10
-0.849792
 20
-115.885
 11
-0.683884
 21
-115.836
  0
LINE
  8
0
 10
-0.683884
 20
-115.836
 11
-0.515289
 21
-115.799
  0
LINE
  8
0
 10
-0.515289
 20
-115.799
 11
-0.344666
 21
-115.772
  0
LINE
  8
0
 10
-0.344666
 20
-115.772
 11
-0.172668
 21
-115.755
  0
LINE
  8
0
 10
-0.172668
 20
-115.755
 11
0
 21
-115.75
  0
LINE
  8
0
 10
0
 20
-115.75
 11
0.172668
 21
-115.755
  0
LINE
  8
0
 10
0.172668
 20
-115.755
 11
0.344666
 21
-115.772
  0
LINE
  8
0
 10
0.344666
 20
-115.772
 11
0.515289
 21
-115.799
  0
LINE
  8
0
 10
0.515289
 20
-115.799
 11
0.683884
 21
-115.836
  0
LINE
  8
0
 10
0.683884
 20
-115.836
 11
0.849792
 21
-115.885
  0
LINE
  8
0
 10
0.849792
 20
-115.885
 11
1.01233
 21
-115.943
  0
LINE
  8
0
 10
1.01233
 20
-115.943
 11
1.17088
 21
-116.012
  0
LINE
  8
0
 10
1.17088
 20
-116.012
 11
1.32481
 21
-116.09
  0
LINE
  8
0
 10
1.32481
 20
-116.09
 11
1.47351
 21
-116.178
  0
LINE
  8
0
 10
1.47351
 20
-116.178
 11
1.61641
 21
-116.275
  0
LINE
  8
0
 10
1.61641
 20
-116.275
 11
1.75291
 21
-116.381
  0
LINE
  8
0
 10
1.75291
 20
-116.381
 11
1.88249
 21
-116.495
  0
LINE
  8
0
 10
1.88249
 20
-116.495
 11
2.00465
 21
-116.617
  0
LINE
  8
0
 10
2.00465
 20
-116.617
 11
2.1189
 21
-116.747
  0
LINE
  8
0
 10
2.1189
 20
-116.747
 11
2.22479
 21
-116.884
  0
LINE
  8
0
 10
2.22479
 20
-116.884
 11
2.3219
 21
-117.026
  0
LINE
  8
0
 10
2.3219
 20
-117.026
 11
2.40984
 21
-117.175
  0
LINE
  8
0
 10
2.40984
 20
-117.175
 11
2.48827
 21
-117.329
  0
LINE
  8
0
 10
2.48827
 20
-117.329
 11
2.55688
 21
-117.488
  0
LINE
  8
0
 10
2.55688
 20
-117.488
 11
2.6154
 21
-117.65
  0
LINE
  8
0
 10
2.6154
 20
-117.65
 11
2.66359
 21
-117.816
  0
LINE
  8
0
 10
2.66359
 20
-117.816
 11
2.70128
 21
-117.985
  0
LINE
  8
0
 10
2.70128
 20
-117.985
 11
2.7283
 21
-118.155
  0
LINE
  8
0
 10
2.7283
 20
-118.155
 11
2.74457
 21
-118.327
  0
LINE
  8
0
 10
2.74457
 20
-118.327
 11
2.75
 21
-118.5
  0
LINE
  8
0
 10
2.75
 20
-118.5
 11
2.74457
 21
-118.673
  0
LINE
  8
0
 10
2.74457
 20
-118.673
 11
2.7283
 21
-118.845
  0
LINE
  8
0
 10
2.7283
 20
-118.845
 11
2.70128
 21
-119.015
  0
LINE
  8
0
 10
2.70128
 20
-119.015
 11
2.66359
 21
-119.184
  0
LINE
  8
0
 10
2.66359
 20
-119.184
 11
2.6154
 21
-119.35
  0
LINE
  8
0
 10
2.6154
 20
-119.35
 11
2.55688
 21
-119.512
  0
LINE
  8
0
 10
2.55688
 20
-119.512
 11
2.48827
 21
-119.671
  0
LINE
  8
0
 10
2.48827
 20
-119.671
 11
2.40984
 21
-119.825
  0
LINE
  8
0
 10
2.40984
 20
-119.825
 11
2.3219
 21
-119.974
  0
LINE
  8
0
 10
2.3219
 20
-119.974
 11
2.22479
 21
-120.116
  0
LINE
  8
0
 10
2.22479
 20
-120.116
 11
2.1189
 21
-120.253
  0
LINE
  8
0
 10
2.1189
 20
-120.253
 11
2.00465
 21
-120.383
  0
LINE
  8
0
 10
2.00465
 20
-120.383
 11
1.88249
 21
-120.505
  0
LINE
  8
0
 10
1.88249
 20
-120.505
 11
1.75291
 21
-120.619
  0
LINE
  8
0
 10
1.75291
 20
-120.619
 11
1.61641
 21
-120.725
  0
LINE
  8
0
 10
1.61641
 20
-120.725
 11
1.47351
 21
-120.822
  0
LINE
  8
0
 10
1.47351
 20
-120.822
 11
1.32481
 21
-120.91
  0
LINE
  8
0
 10
1.32481
 20
-120.91
 11
1.17088
 21
-120.988
  0
LINE
  8
0
 10
1.17088
 20
-120.988
 11
1.01233
 21
-121.057
  0
LINE
  8
0
 10
1.01233
 20
-121.057
 11
0.849792
 21
-121.115
  0
LINE
  8
0
 10
0.849792
 20
-121.115
 11
0.683884
 21
-121.164
  0
LINE
  8
0
 10
0.683884
 20
-121.164
 11
0.515289
 21
-121.201
  0
LINE
  8
0
 10
0.515289
 20
-121.201
 11
0.344666
 21
-121.228
  0
LINE
  8
0
 10
0.344666
 20
-121.228
 11
0.172668
 21
-121.245
  0
LINE
  8
0
 10
0.172668
 20
-121.245
 11
0
 21
-121.25
  0
LINE
  8
0
 10
0
 20
-121.25
 11
-0.172668
 21
-121.245
  0
ENDSEC
  0
SECTION
  2
OBJECTS
  0
DICTIONARY
  0
ENDSEC
  0
EOF
